ISO-10303-21;
HEADER;
/* Generated by software containing ST-Developer
 * from STEP Tools, Inc. (www.steptools.com) 
 */

FILE_DESCRIPTION(
/* description */ (''),
/* implementation_level */ '2;1');

FILE_NAME(
/* name */ 
'C:\\Users\\CAD Station\\Desktop\\1PB\\22 mm\\22mm Polycarbonate Enclo
sures\\7211 981\\7211_981.stp',
/* time_stamp */ '2016-07-20T10:02:35-04:00',
/* author */ ('CAD Station'),
/* organization */ (''),
/* preprocessor_version */ 'ST-DEVELOPER v16.1',
/* originating_system */ 'Autodesk Inventor 2016',
/* authorisation */ '');

FILE_SCHEMA (('AUTOMOTIVE_DESIGN { 1 0 10303 214 3 1 1 }'));
ENDSEC;

DATA;
#10=MECHANICAL_DESIGN_GEOMETRIC_PRESENTATION_REPRESENTATION('',(#282,#284,
#280,#281,#283,#279,#293,#294,#291,#289,#290,#285,#286,#292,#288,#287),
#484);
#11=SHAPE_REPRESENTATION_RELATIONSHIP('SRR','None',#493,#12);
#12=ADVANCED_BREP_SHAPE_REPRESENTATION('',(#13),#483);
#13=MANIFOLD_SOLID_BREP('Solid1',#310);
#14=CYLINDRICAL_SURFACE('',#325,10.);
#15=FACE_BOUND('',#38,.T.);
#16=FACE_BOUND('',#49,.T.);
#17=FACE_BOUND('',#52,.T.);
#18=CIRCLE('',#315,10.);
#19=CIRCLE('',#326,10.);
#20=FACE_OUTER_BOUND('',#35,.T.);
#21=FACE_OUTER_BOUND('',#36,.T.);
#22=FACE_OUTER_BOUND('',#37,.T.);
#23=FACE_OUTER_BOUND('',#39,.T.);
#24=FACE_OUTER_BOUND('',#40,.T.);
#25=FACE_OUTER_BOUND('',#41,.T.);
#26=FACE_OUTER_BOUND('',#42,.T.);
#27=FACE_OUTER_BOUND('',#43,.T.);
#28=FACE_OUTER_BOUND('',#44,.T.);
#29=FACE_OUTER_BOUND('',#45,.T.);
#30=FACE_OUTER_BOUND('',#46,.T.);
#31=FACE_OUTER_BOUND('',#47,.T.);
#32=FACE_OUTER_BOUND('',#48,.T.);
#33=FACE_OUTER_BOUND('',#50,.T.);
#34=FACE_OUTER_BOUND('',#51,.T.);
#35=EDGE_LOOP('',(#189,#190,#191,#192));
#36=EDGE_LOOP('',(#193,#194,#195,#196));
#37=EDGE_LOOP('',(#197,#198,#199,#200,#201,#202,#203,#204,#205,#206,#207,
#208));
#38=EDGE_LOOP('',(#209));
#39=EDGE_LOOP('',(#210,#211,#212,#213));
#40=EDGE_LOOP('',(#214,#215,#216,#217));
#41=EDGE_LOOP('',(#218,#219,#220,#221));
#42=EDGE_LOOP('',(#222,#223,#224,#225));
#43=EDGE_LOOP('',(#226,#227,#228,#229));
#44=EDGE_LOOP('',(#230,#231,#232,#233));
#45=EDGE_LOOP('',(#234,#235,#236,#237));
#46=EDGE_LOOP('',(#238,#239,#240,#241));
#47=EDGE_LOOP('',(#242,#243,#244,#245));
#48=EDGE_LOOP('',(#246));
#49=EDGE_LOOP('',(#247));
#50=EDGE_LOOP('',(#248,#249,#250,#251));
#51=EDGE_LOOP('',(#252,#253,#254,#255,#256,#257,#258,#259,#260,#261,#262,
#263));
#52=EDGE_LOOP('',(#264));
#53=LINE('',#405,#89);
#54=LINE('',#407,#90);
#55=LINE('',#409,#91);
#56=LINE('',#410,#92);
#57=LINE('',#413,#93);
#58=LINE('',#415,#94);
#59=LINE('',#416,#95);
#60=LINE('',#419,#96);
#61=LINE('',#421,#97);
#62=LINE('',#423,#98);
#63=LINE('',#425,#99);
#64=LINE('',#427,#100);
#65=LINE('',#429,#101);
#66=LINE('',#431,#102);
#67=LINE('',#433,#103);
#68=LINE('',#435,#104);
#69=LINE('',#436,#105);
#70=LINE('',#441,#106);
#71=LINE('',#442,#107);
#72=LINE('',#445,#108);
#73=LINE('',#446,#109);
#74=LINE('',#449,#110);
#75=LINE('',#450,#111);
#76=LINE('',#453,#112);
#77=LINE('',#454,#113);
#78=LINE('',#457,#114);
#79=LINE('',#458,#115);
#80=LINE('',#461,#116);
#81=LINE('',#462,#117);
#82=LINE('',#465,#118);
#83=LINE('',#466,#119);
#84=LINE('',#469,#120);
#85=LINE('',#470,#121);
#86=LINE('',#473,#122);
#87=LINE('',#474,#123);
#88=LINE('',#479,#124);
#89=VECTOR('',#333,2.59807621135332);
#90=VECTOR('',#334,5.);
#91=VECTOR('',#335,2.59807621135332);
#92=VECTOR('',#336,5.);
#93=VECTOR('',#339,10.856406460551);
#94=VECTOR('',#340,5.);
#95=VECTOR('',#341,10.856406460551);
#96=VECTOR('',#344,10.856406460551);
#97=VECTOR('',#345,2.59807621135332);
#98=VECTOR('',#346,10.856406460551);
#99=VECTOR('',#347,2.59807621135332);
#100=VECTOR('',#348,10.856406460551);
#101=VECTOR('',#349,2.59807621135332);
#102=VECTOR('',#350,10.856406460551);
#103=VECTOR('',#351,2.59807621135332);
#104=VECTOR('',#352,10.856406460551);
#105=VECTOR('',#353,2.59807621135331);
#106=VECTOR('',#358,2.59807621135331);
#107=VECTOR('',#359,5.);
#108=VECTOR('',#362,5.);
#109=VECTOR('',#363,10.856406460551);
#110=VECTOR('',#366,2.59807621135332);
#111=VECTOR('',#367,5.);
#112=VECTOR('',#370,5.);
#113=VECTOR('',#371,10.856406460551);
#114=VECTOR('',#374,2.59807621135332);
#115=VECTOR('',#375,5.);
#116=VECTOR('',#378,5.);
#117=VECTOR('',#379,10.856406460551);
#118=VECTOR('',#382,2.59807621135332);
#119=VECTOR('',#383,5.);
#120=VECTOR('',#386,5.);
#121=VECTOR('',#387,10.856406460551);
#122=VECTOR('',#390,2.59807621135332);
#123=VECTOR('',#391,5.);
#124=VECTOR('',#398,10.856406460551);
#125=VERTEX_POINT('',#403);
#126=VERTEX_POINT('',#404);
#127=VERTEX_POINT('',#406);
#128=VERTEX_POINT('',#408);
#129=VERTEX_POINT('',#412);
#130=VERTEX_POINT('',#414);
#131=VERTEX_POINT('',#418);
#132=VERTEX_POINT('',#420);
#133=VERTEX_POINT('',#422);
#134=VERTEX_POINT('',#424);
#135=VERTEX_POINT('',#426);
#136=VERTEX_POINT('',#428);
#137=VERTEX_POINT('',#430);
#138=VERTEX_POINT('',#432);
#139=VERTEX_POINT('',#434);
#140=VERTEX_POINT('',#437);
#141=VERTEX_POINT('',#440);
#142=VERTEX_POINT('',#444);
#143=VERTEX_POINT('',#448);
#144=VERTEX_POINT('',#452);
#145=VERTEX_POINT('',#456);
#146=VERTEX_POINT('',#460);
#147=VERTEX_POINT('',#464);
#148=VERTEX_POINT('',#468);
#149=VERTEX_POINT('',#472);
#150=VERTEX_POINT('',#476);
#151=EDGE_CURVE('',#125,#126,#53,.T.);
#152=EDGE_CURVE('',#126,#127,#54,.T.);
#153=EDGE_CURVE('',#127,#128,#55,.T.);
#154=EDGE_CURVE('',#128,#125,#56,.T.);
#155=EDGE_CURVE('',#129,#128,#57,.T.);
#156=EDGE_CURVE('',#130,#129,#58,.T.);
#157=EDGE_CURVE('',#125,#130,#59,.T.);
#158=EDGE_CURVE('',#127,#131,#60,.T.);
#159=EDGE_CURVE('',#132,#131,#61,.T.);
#160=EDGE_CURVE('',#132,#133,#62,.T.);
#161=EDGE_CURVE('',#134,#133,#63,.T.);
#162=EDGE_CURVE('',#134,#135,#64,.T.);
#163=EDGE_CURVE('',#136,#135,#65,.T.);
#164=EDGE_CURVE('',#136,#137,#66,.T.);
#165=EDGE_CURVE('',#138,#137,#67,.T.);
#166=EDGE_CURVE('',#138,#139,#68,.T.);
#167=EDGE_CURVE('',#129,#139,#69,.T.);
#168=EDGE_CURVE('',#140,#140,#18,.T.);
#169=EDGE_CURVE('',#141,#130,#70,.T.);
#170=EDGE_CURVE('',#139,#141,#71,.T.);
#171=EDGE_CURVE('',#142,#138,#72,.T.);
#172=EDGE_CURVE('',#141,#142,#73,.T.);
#173=EDGE_CURVE('',#143,#142,#74,.T.);
#174=EDGE_CURVE('',#137,#143,#75,.T.);
#175=EDGE_CURVE('',#144,#136,#76,.T.);
#176=EDGE_CURVE('',#143,#144,#77,.T.);
#177=EDGE_CURVE('',#145,#144,#78,.T.);
#178=EDGE_CURVE('',#135,#145,#79,.T.);
#179=EDGE_CURVE('',#146,#134,#80,.T.);
#180=EDGE_CURVE('',#145,#146,#81,.T.);
#181=EDGE_CURVE('',#147,#146,#82,.T.);
#182=EDGE_CURVE('',#133,#147,#83,.T.);
#183=EDGE_CURVE('',#148,#132,#84,.T.);
#184=EDGE_CURVE('',#147,#148,#85,.T.);
#185=EDGE_CURVE('',#149,#148,#86,.T.);
#186=EDGE_CURVE('',#131,#149,#87,.T.);
#187=EDGE_CURVE('',#150,#150,#19,.T.);
#188=EDGE_CURVE('',#149,#126,#88,.T.);
#189=ORIENTED_EDGE('',*,*,#151,.T.);
#190=ORIENTED_EDGE('',*,*,#152,.T.);
#191=ORIENTED_EDGE('',*,*,#153,.T.);
#192=ORIENTED_EDGE('',*,*,#154,.T.);
#193=ORIENTED_EDGE('',*,*,#154,.F.);
#194=ORIENTED_EDGE('',*,*,#155,.F.);
#195=ORIENTED_EDGE('',*,*,#156,.F.);
#196=ORIENTED_EDGE('',*,*,#157,.F.);
#197=ORIENTED_EDGE('',*,*,#153,.F.);
#198=ORIENTED_EDGE('',*,*,#158,.T.);
#199=ORIENTED_EDGE('',*,*,#159,.F.);
#200=ORIENTED_EDGE('',*,*,#160,.T.);
#201=ORIENTED_EDGE('',*,*,#161,.F.);
#202=ORIENTED_EDGE('',*,*,#162,.T.);
#203=ORIENTED_EDGE('',*,*,#163,.F.);
#204=ORIENTED_EDGE('',*,*,#164,.T.);
#205=ORIENTED_EDGE('',*,*,#165,.F.);
#206=ORIENTED_EDGE('',*,*,#166,.T.);
#207=ORIENTED_EDGE('',*,*,#167,.F.);
#208=ORIENTED_EDGE('',*,*,#155,.T.);
#209=ORIENTED_EDGE('',*,*,#168,.T.);
#210=ORIENTED_EDGE('',*,*,#169,.T.);
#211=ORIENTED_EDGE('',*,*,#156,.T.);
#212=ORIENTED_EDGE('',*,*,#167,.T.);
#213=ORIENTED_EDGE('',*,*,#170,.T.);
#214=ORIENTED_EDGE('',*,*,#170,.F.);
#215=ORIENTED_EDGE('',*,*,#166,.F.);
#216=ORIENTED_EDGE('',*,*,#171,.F.);
#217=ORIENTED_EDGE('',*,*,#172,.F.);
#218=ORIENTED_EDGE('',*,*,#173,.T.);
#219=ORIENTED_EDGE('',*,*,#171,.T.);
#220=ORIENTED_EDGE('',*,*,#165,.T.);
#221=ORIENTED_EDGE('',*,*,#174,.T.);
#222=ORIENTED_EDGE('',*,*,#174,.F.);
#223=ORIENTED_EDGE('',*,*,#164,.F.);
#224=ORIENTED_EDGE('',*,*,#175,.F.);
#225=ORIENTED_EDGE('',*,*,#176,.F.);
#226=ORIENTED_EDGE('',*,*,#177,.T.);
#227=ORIENTED_EDGE('',*,*,#175,.T.);
#228=ORIENTED_EDGE('',*,*,#163,.T.);
#229=ORIENTED_EDGE('',*,*,#178,.T.);
#230=ORIENTED_EDGE('',*,*,#178,.F.);
#231=ORIENTED_EDGE('',*,*,#162,.F.);
#232=ORIENTED_EDGE('',*,*,#179,.F.);
#233=ORIENTED_EDGE('',*,*,#180,.F.);
#234=ORIENTED_EDGE('',*,*,#181,.T.);
#235=ORIENTED_EDGE('',*,*,#179,.T.);
#236=ORIENTED_EDGE('',*,*,#161,.T.);
#237=ORIENTED_EDGE('',*,*,#182,.T.);
#238=ORIENTED_EDGE('',*,*,#182,.F.);
#239=ORIENTED_EDGE('',*,*,#160,.F.);
#240=ORIENTED_EDGE('',*,*,#183,.F.);
#241=ORIENTED_EDGE('',*,*,#184,.F.);
#242=ORIENTED_EDGE('',*,*,#185,.T.);
#243=ORIENTED_EDGE('',*,*,#183,.T.);
#244=ORIENTED_EDGE('',*,*,#159,.T.);
#245=ORIENTED_EDGE('',*,*,#186,.T.);
#246=ORIENTED_EDGE('',*,*,#187,.F.);
#247=ORIENTED_EDGE('',*,*,#168,.F.);
#248=ORIENTED_EDGE('',*,*,#152,.F.);
#249=ORIENTED_EDGE('',*,*,#188,.F.);
#250=ORIENTED_EDGE('',*,*,#186,.F.);
#251=ORIENTED_EDGE('',*,*,#158,.F.);
#252=ORIENTED_EDGE('',*,*,#151,.F.);
#253=ORIENTED_EDGE('',*,*,#157,.T.);
#254=ORIENTED_EDGE('',*,*,#169,.F.);
#255=ORIENTED_EDGE('',*,*,#172,.T.);
#256=ORIENTED_EDGE('',*,*,#173,.F.);
#257=ORIENTED_EDGE('',*,*,#176,.T.);
#258=ORIENTED_EDGE('',*,*,#177,.F.);
#259=ORIENTED_EDGE('',*,*,#180,.T.);
#260=ORIENTED_EDGE('',*,*,#181,.F.);
#261=ORIENTED_EDGE('',*,*,#184,.T.);
#262=ORIENTED_EDGE('',*,*,#185,.F.);
#263=ORIENTED_EDGE('',*,*,#188,.T.);
#264=ORIENTED_EDGE('',*,*,#187,.T.);
#265=PLANE('',#312);
#266=PLANE('',#313);
#267=PLANE('',#314);
#268=PLANE('',#316);
#269=PLANE('',#317);
#270=PLANE('',#318);
#271=PLANE('',#319);
#272=PLANE('',#320);
#273=PLANE('',#321);
#274=PLANE('',#322);
#275=PLANE('',#323);
#276=PLANE('',#324);
#277=PLANE('',#327);
#278=PLANE('',#328);
#279=STYLED_ITEM('',(#503),#295);
#280=STYLED_ITEM('',(#503),#296);
#281=STYLED_ITEM('',(#503),#297);
#282=STYLED_ITEM('',(#503),#298);
#283=STYLED_ITEM('',(#503),#299);
#284=STYLED_ITEM('',(#503),#300);
#285=STYLED_ITEM('',(#503),#301);
#286=STYLED_ITEM('',(#503),#302);
#287=STYLED_ITEM('',(#503),#303);
#288=STYLED_ITEM('',(#503),#304);
#289=STYLED_ITEM('',(#503),#305);
#290=STYLED_ITEM('',(#503),#306);
#291=STYLED_ITEM('',(#503),#307);
#292=STYLED_ITEM('',(#503),#308);
#293=STYLED_ITEM('',(#503),#309);
#294=STYLED_ITEM('',(#502),#13);
#295=ADVANCED_FACE('',(#20),#265,.T.);
#296=ADVANCED_FACE('',(#21),#266,.T.);
#297=ADVANCED_FACE('',(#22,#15),#267,.F.);
#298=ADVANCED_FACE('',(#23),#268,.T.);
#299=ADVANCED_FACE('',(#24),#269,.T.);
#300=ADVANCED_FACE('',(#25),#270,.T.);
#301=ADVANCED_FACE('',(#26),#271,.T.);
#302=ADVANCED_FACE('',(#27),#272,.T.);
#303=ADVANCED_FACE('',(#28),#273,.T.);
#304=ADVANCED_FACE('',(#29),#274,.T.);
#305=ADVANCED_FACE('',(#30),#275,.T.);
#306=ADVANCED_FACE('',(#31),#276,.T.);
#307=ADVANCED_FACE('',(#32,#16),#14,.F.);
#308=ADVANCED_FACE('',(#33),#277,.T.);
#309=ADVANCED_FACE('',(#34,#17),#278,.T.);
#310=CLOSED_SHELL('',(#295,#296,#297,#298,#299,#300,#301,#302,#303,#304,
#305,#306,#307,#308,#309));
#311=AXIS2_PLACEMENT_3D('placement',#401,#329,#330);
#312=AXIS2_PLACEMENT_3D('',#402,#331,#332);
#313=AXIS2_PLACEMENT_3D('',#411,#337,#338);
#314=AXIS2_PLACEMENT_3D('',#417,#342,#343);
#315=AXIS2_PLACEMENT_3D('',#438,#354,#355);
#316=AXIS2_PLACEMENT_3D('',#439,#356,#357);
#317=AXIS2_PLACEMENT_3D('',#443,#360,#361);
#318=AXIS2_PLACEMENT_3D('',#447,#364,#365);
#319=AXIS2_PLACEMENT_3D('',#451,#368,#369);
#320=AXIS2_PLACEMENT_3D('',#455,#372,#373);
#321=AXIS2_PLACEMENT_3D('',#459,#376,#377);
#322=AXIS2_PLACEMENT_3D('',#463,#380,#381);
#323=AXIS2_PLACEMENT_3D('',#467,#384,#385);
#324=AXIS2_PLACEMENT_3D('',#471,#388,#389);
#325=AXIS2_PLACEMENT_3D('',#475,#392,#393);
#326=AXIS2_PLACEMENT_3D('',#477,#394,#395);
#327=AXIS2_PLACEMENT_3D('',#478,#396,#397);
#328=AXIS2_PLACEMENT_3D('',#480,#399,#400);
#329=DIRECTION('axis',(0.,0.,1.));
#330=DIRECTION('refdir',(1.,0.,0.));
#331=DIRECTION('center_axis',(1.,0.,0.));
#332=DIRECTION('ref_axis',(0.,0.,-1.));
#333=DIRECTION('',(0.,0.,1.));
#334=DIRECTION('',(0.,-1.,0.));
#335=DIRECTION('',(0.,0.,-1.));
#336=DIRECTION('',(0.,1.,0.));
#337=DIRECTION('center_axis',(0.866025403784439,0.,-0.5));
#338=DIRECTION('ref_axis',(-0.5,0.,-0.866025403784439));
#339=DIRECTION('',(0.5,0.,0.866025403784439));
#340=DIRECTION('',(0.,-1.,0.));
#341=DIRECTION('',(-0.5,0.,-0.866025403784439));
#342=DIRECTION('center_axis',(0.,1.,0.));
#343=DIRECTION('ref_axis',(0.,0.,1.));
#344=DIRECTION('',(-0.5,0.,0.866025403784439));
#345=DIRECTION('',(0.866025403784439,0.,-0.5));
#346=DIRECTION('',(-1.,0.,3.20493781063927E-16));
#347=DIRECTION('',(0.866025403784439,0.,0.5));
#348=DIRECTION('',(-0.5,0.,-0.866025403784439));
#349=DIRECTION('',(8.5465008283714E-16,0.,1.));
#350=DIRECTION('',(0.5,0.,-0.866025403784439));
#351=DIRECTION('',(-0.866025403784439,0.,0.5));
#352=DIRECTION('',(1.,0.,-1.60246890531964E-16));
#353=DIRECTION('',(-0.866025403784439,0.,-0.499999999999999));
#354=DIRECTION('center_axis',(0.,1.,0.));
#355=DIRECTION('ref_axis',(1.,0.,0.));
#356=DIRECTION('center_axis',(0.499999999999999,0.,-0.866025403784439));
#357=DIRECTION('ref_axis',(-0.866025403784439,0.,-0.499999999999999));
#358=DIRECTION('',(0.866025403784439,0.,0.499999999999999));
#359=DIRECTION('',(0.,1.,0.));
#360=DIRECTION('center_axis',(-1.60246890531964E-16,0.,-1.));
#361=DIRECTION('ref_axis',(-1.,0.,1.77635683940025E-16));
#362=DIRECTION('',(0.,-1.,0.));
#363=DIRECTION('',(-1.,0.,1.60246890531964E-16));
#364=DIRECTION('center_axis',(-0.5,0.,-0.866025403784439));
#365=DIRECTION('ref_axis',(-0.866025403784439,0.,0.5));
#366=DIRECTION('',(0.866025403784439,0.,-0.5));
#367=DIRECTION('',(0.,1.,0.));
#368=DIRECTION('center_axis',(-0.866025403784439,0.,-0.5));
#369=DIRECTION('ref_axis',(-0.5,0.,0.866025403784439));
#370=DIRECTION('',(0.,-1.,0.));
#371=DIRECTION('',(-0.5,0.,0.866025403784439));
#372=DIRECTION('center_axis',(-1.,0.,8.5465008283714E-16));
#373=DIRECTION('ref_axis',(8.88178419700125E-16,0.,1.));
#374=DIRECTION('',(-8.5465008283714E-16,0.,-1.));
#375=DIRECTION('',(0.,1.,0.));
#376=DIRECTION('center_axis',(-0.866025403784439,0.,0.5));
#377=DIRECTION('ref_axis',(0.5,0.,0.866025403784439));
#378=DIRECTION('',(0.,-1.,0.));
#379=DIRECTION('',(0.5,0.,0.866025403784439));
#380=DIRECTION('center_axis',(-0.5,0.,0.866025403784439));
#381=DIRECTION('ref_axis',(0.866025403784439,0.,0.5));
#382=DIRECTION('',(-0.866025403784439,0.,-0.5));
#383=DIRECTION('',(0.,1.,0.));
#384=DIRECTION('center_axis',(3.20493781063927E-16,0.,1.));
#385=DIRECTION('ref_axis',(1.,0.,-3.5527136788005E-16));
#386=DIRECTION('',(0.,-1.,0.));
#387=DIRECTION('',(1.,0.,-3.20493781063927E-16));
#388=DIRECTION('center_axis',(0.5,0.,0.866025403784439));
#389=DIRECTION('ref_axis',(0.866025403784439,0.,-0.5));
#390=DIRECTION('',(-0.866025403784439,0.,0.5));
#391=DIRECTION('',(0.,1.,0.));
#392=DIRECTION('center_axis',(0.,1.,0.));
#393=DIRECTION('ref_axis',(1.,0.,0.));
#394=DIRECTION('center_axis',(0.,-1.,0.));
#395=DIRECTION('ref_axis',(1.,0.,0.));
#396=DIRECTION('center_axis',(0.866025403784439,0.,0.5));
#397=DIRECTION('ref_axis',(0.5,0.,-0.866025403784439));
#398=DIRECTION('',(0.5,0.,-0.866025403784439));
#399=DIRECTION('center_axis',(0.,1.,0.));
#400=DIRECTION('ref_axis',(0.,0.,1.));
#401=CARTESIAN_POINT('',(0.,0.,0.));
#402=CARTESIAN_POINT('Origin',(13.106406460551,0.,-2.08166817117217E-15));
#403=CARTESIAN_POINT('',(13.106406460551,5.,-1.29903810567666));
#404=CARTESIAN_POINT('',(13.106406460551,5.,1.29903810567666));
#405=CARTESIAN_POINT('',(13.106406460551,5.,-2.15105711021124E-15));
#406=CARTESIAN_POINT('',(13.106406460551,0.,1.29903810567666));
#407=CARTESIAN_POINT('',(13.106406460551,0.,1.29903810567666));
#408=CARTESIAN_POINT('',(13.106406460551,0.,-1.29903810567666));
#409=CARTESIAN_POINT('',(13.106406460551,0.,-1.64175992508095E-15));
#410=CARTESIAN_POINT('',(13.106406460551,0.,-1.29903810567666));
#411=CARTESIAN_POINT('Origin',(13.856406460551,0.,0.));
#412=CARTESIAN_POINT('',(7.67820323027551,0.,-10.7009618943233));
#413=CARTESIAN_POINT('',(6.92820323027551,0.,-12.));
#414=CARTESIAN_POINT('',(7.67820323027551,5.,-10.7009618943233));
#415=CARTESIAN_POINT('',(7.67820323027551,0.,-10.7009618943233));
#416=CARTESIAN_POINT('',(6.92820323027551,5.,-12.));
#417=CARTESIAN_POINT('Origin',(1.60246890531964E-15,0.,-1.20185167898973E-15));
#418=CARTESIAN_POINT('',(7.67820323027551,0.,10.7009618943233));
#419=CARTESIAN_POINT('',(13.856406460551,0.,-2.75315583140742E-15));
#420=CARTESIAN_POINT('',(5.42820323027551,0.,12.));
#421=CARTESIAN_POINT('',(6.55320323027551,0.,11.3504809471617));
#422=CARTESIAN_POINT('',(-5.4282032302755,0.,12.));
#423=CARTESIAN_POINT('',(6.92820323027551,0.,12.));
#424=CARTESIAN_POINT('',(-7.6782032302755,0.,10.7009618943233));
#425=CARTESIAN_POINT('',(-6.55320323027551,0.,11.3504809471617));
#426=CARTESIAN_POINT('',(-13.106406460551,0.,1.29903810567666));
#427=CARTESIAN_POINT('',(-6.9282032302755,0.,12.));
#428=CARTESIAN_POINT('',(-13.106406460551,0.,-1.29903810567666));
#429=CARTESIAN_POINT('',(-13.106406460551,0.,5.41610347834315E-15));
#430=CARTESIAN_POINT('',(-7.67820323027551,0.,-10.7009618943233));
#431=CARTESIAN_POINT('',(-13.856406460551,0.,-8.73237850784863E-16));
#432=CARTESIAN_POINT('',(-5.42820323027551,0.,-12.));
#433=CARTESIAN_POINT('',(-6.55320323027551,0.,-11.3504809471617));
#434=CARTESIAN_POINT('',(5.42820323027551,0.,-12.));
#435=CARTESIAN_POINT('',(-6.92820323027551,0.,-12.));
#436=CARTESIAN_POINT('',(6.5532032302755,0.,-11.3504809471617));
#437=CARTESIAN_POINT('',(-10.,0.,1.22464679914735E-15));
#438=CARTESIAN_POINT('Origin',(0.,0.,0.));
#439=CARTESIAN_POINT('Origin',(6.55320323027551,0.,-11.3504809471617));
#440=CARTESIAN_POINT('',(5.42820323027551,5.,-12.));
#441=CARTESIAN_POINT('',(6.5532032302755,5.,-11.3504809471617));
#442=CARTESIAN_POINT('',(5.42820323027551,0.,-12.));
#443=CARTESIAN_POINT('Origin',(6.92820323027551,0.,-12.));
#444=CARTESIAN_POINT('',(-5.42820323027551,5.,-12.));
#445=CARTESIAN_POINT('',(-5.42820323027551,0.,-12.));
#446=CARTESIAN_POINT('',(-6.92820323027551,5.,-12.));
#447=CARTESIAN_POINT('Origin',(-6.55320323027551,0.,-11.3504809471617));
#448=CARTESIAN_POINT('',(-7.67820323027551,5.,-10.7009618943233));
#449=CARTESIAN_POINT('',(-6.55320323027551,5.,-11.3504809471617));
#450=CARTESIAN_POINT('',(-7.67820323027551,0.,-10.7009618943233));
#451=CARTESIAN_POINT('Origin',(-6.92820323027551,0.,-12.));
#452=CARTESIAN_POINT('',(-13.106406460551,5.,-1.29903810567666));
#453=CARTESIAN_POINT('',(-13.106406460551,0.,-1.29903810567666));
#454=CARTESIAN_POINT('',(-13.856406460551,5.,-8.73237850784863E-16));
#455=CARTESIAN_POINT('Origin',(-13.106406460551,0.,8.32667268468867E-16));
#456=CARTESIAN_POINT('',(-13.106406460551,5.,1.29903810567666));
#457=CARTESIAN_POINT('',(-13.106406460551,5.,4.90680629321285E-15));
#458=CARTESIAN_POINT('',(-13.106406460551,0.,1.29903810567666));
#459=CARTESIAN_POINT('Origin',(-13.856406460551,0.,-2.22044604925031E-15));
#460=CARTESIAN_POINT('',(-7.6782032302755,5.,10.7009618943233));
#461=CARTESIAN_POINT('',(-7.6782032302755,0.,10.7009618943233));
#462=CARTESIAN_POINT('',(-6.9282032302755,5.,12.));
#463=CARTESIAN_POINT('Origin',(-6.5532032302755,0.,11.3504809471617));
#464=CARTESIAN_POINT('',(-5.4282032302755,5.,12.));
#465=CARTESIAN_POINT('',(-6.55320323027551,5.,11.3504809471617));
#466=CARTESIAN_POINT('',(-5.4282032302755,0.,12.));
#467=CARTESIAN_POINT('Origin',(-6.92820323027551,0.,12.));
#468=CARTESIAN_POINT('',(5.42820323027551,5.,12.));
#469=CARTESIAN_POINT('',(5.42820323027551,0.,12.));
#470=CARTESIAN_POINT('',(6.92820323027551,5.,12.));
#471=CARTESIAN_POINT('Origin',(6.55320323027551,0.,11.3504809471617));
#472=CARTESIAN_POINT('',(7.67820323027551,5.,10.7009618943233));
#473=CARTESIAN_POINT('',(6.55320323027551,5.,11.3504809471617));
#474=CARTESIAN_POINT('',(7.67820323027551,0.,10.7009618943233));
#475=CARTESIAN_POINT('Origin',(0.,0.,0.));
#476=CARTESIAN_POINT('',(-10.,5.,1.22464679914735E-15));
#477=CARTESIAN_POINT('Origin',(0.,5.,0.));
#478=CARTESIAN_POINT('Origin',(6.92820323027551,0.,12.));
#479=CARTESIAN_POINT('',(13.856406460551,5.,-2.75315583140742E-15));
#480=CARTESIAN_POINT('Origin',(1.11022302462516E-15,5.,-2.22044604925031E-15));
#481=UNCERTAINTY_MEASURE_WITH_UNIT(LENGTH_MEASURE(0.01),#485,
'DISTANCE_ACCURACY_VALUE',
'Maximum model space distance between geometric entities at asserted c
onnectivities');
#482=UNCERTAINTY_MEASURE_WITH_UNIT(LENGTH_MEASURE(1.E-6),#485,
'DISTANCE_ACCURACY_VALUE',
'Maximum model space distance between geometric entities at asserted c
onnectivities');
#483=(
GEOMETRIC_REPRESENTATION_CONTEXT(3)
GLOBAL_UNCERTAINTY_ASSIGNED_CONTEXT((#481))
GLOBAL_UNIT_ASSIGNED_CONTEXT((#485,#488,#486))
REPRESENTATION_CONTEXT('','3D')
);
#484=(
GEOMETRIC_REPRESENTATION_CONTEXT(3)
GLOBAL_UNCERTAINTY_ASSIGNED_CONTEXT((#482))
GLOBAL_UNIT_ASSIGNED_CONTEXT((#485,#488,#486))
REPRESENTATION_CONTEXT('','3D')
);
#485=(
LENGTH_UNIT()
NAMED_UNIT(*)
SI_UNIT(.MILLI.,.METRE.)
);
#486=(
NAMED_UNIT(*)
SI_UNIT($,.STERADIAN.)
SOLID_ANGLE_UNIT()
);
#487=DIMENSIONAL_EXPONENTS(0.,0.,0.,0.,0.,0.,0.);
#488=(
CONVERSION_BASED_UNIT('degree',#490)
NAMED_UNIT(#487)
PLANE_ANGLE_UNIT()
);
#489=(
NAMED_UNIT(*)
PLANE_ANGLE_UNIT()
SI_UNIT($,.RADIAN.)
);
#490=PLANE_ANGLE_MEASURE_WITH_UNIT(PLANE_ANGLE_MEASURE(0.01745329252),#489);
#491=SHAPE_DEFINITION_REPRESENTATION(#492,#493);
#492=PRODUCT_DEFINITION_SHAPE('',$,#495);
#493=SHAPE_REPRESENTATION('',(#311),#483);
#494=PRODUCT_DEFINITION_CONTEXT('part definition',#499,'design');
#495=PRODUCT_DEFINITION('7211_981','7211_981',#496,#494);
#496=PRODUCT_DEFINITION_FORMATION('',$,#501);
#497=PRODUCT_RELATED_PRODUCT_CATEGORY('7211_981','7211_981',(#501));
#498=APPLICATION_PROTOCOL_DEFINITION('international standard',
'automotive_design',2009,#499);
#499=APPLICATION_CONTEXT(
'Core Data for Automotive Mechanical Design Process');
#500=PRODUCT_CONTEXT('part definition',#499,'mechanical');
#501=PRODUCT('7211_981','7211_981',$,(#500));
#502=PRESENTATION_STYLE_ASSIGNMENT((#504));
#503=PRESENTATION_STYLE_ASSIGNMENT((#505));
#504=SURFACE_STYLE_USAGE(.BOTH.,#506);
#505=SURFACE_STYLE_USAGE(.BOTH.,#507);
#506=SURFACE_SIDE_STYLE('',(#508));
#507=SURFACE_SIDE_STYLE('',(#509));
#508=SURFACE_STYLE_FILL_AREA(#510);
#509=SURFACE_STYLE_FILL_AREA(#511);
#510=FILL_AREA_STYLE('',(#512));
#511=FILL_AREA_STYLE('',(#513));
#512=FILL_AREA_STYLE_COLOUR('',#514);
#513=FILL_AREA_STYLE_COLOUR('',#515);
#514=COLOUR_RGB('',0.749019607843137,0.749019607843137,0.749019607843137);
#515=COLOUR_RGB('',0.63921568627451,0.63921568627451,0.63921568627451);
ENDSEC;
END-ISO-10303-21;
