ISO-10303-21;
HEADER;
/* Generated by software containing ST-Developer
 * from STEP Tools, Inc. (www.steptools.com) 
 */

FILE_DESCRIPTION(
/* description */ (''),
/* implementation_level */ '2;1');

FILE_NAME(
/* name */ 
'C:\\Users\\CAD Station\\Desktop\\1PB\\22 mm\\22mm Push Button Accesso
ries\\2ALBT7\\2ALBT7.stp',
/* time_stamp */ '2016-07-21T11:45:43-04:00',
/* author */ ('CAD Station'),
/* organization */ (''),
/* preprocessor_version */ 'ST-DEVELOPER v16.1',
/* originating_system */ 'Autodesk Inventor 2016',
/* authorisation */ '');

FILE_SCHEMA (('AUTOMOTIVE_DESIGN { 1 0 10303 214 3 1 1 }'));
ENDSEC;

DATA;
#10=MECHANICAL_DESIGN_GEOMETRIC_PRESENTATION_REPRESENTATION('',(#215,#228,
#224,#217,#219,#216,#220,#222,#223,#218,#221,#226,#227,#229,#225,#232,#230,
#235,#236,#233,#234,#231),#450);
#11=SHAPE_REPRESENTATION_RELATIONSHIP('SRR','None',#459,#12);
#12=ADVANCED_BREP_SHAPE_REPRESENTATION('',(#13),#449);
#13=MANIFOLD_SOLID_BREP('Solid1',#258);
#14=CYLINDRICAL_SURFACE('',#265,13.5);
#15=CYLINDRICAL_SURFACE('',#269,16.);
#16=PLANE('',#263);
#17=PLANE('',#274);
#18=PLANE('',#277);
#19=PLANE('',#283);
#20=PLANE('',#286);
#21=PLANE('',#291);
#22=PLANE('',#298);
#23=FACE_BOUND('',#64,.T.);
#24=FACE_BOUND('',#66,.T.);
#25=FACE_BOUND('',#68,.T.);
#26=FACE_BOUND('',#70,.T.);
#27=FACE_BOUND('',#72,.T.);
#28=FACE_BOUND('',#74,.T.);
#29=FACE_BOUND('',#77,.T.);
#30=FACE_BOUND('',#79,.T.);
#31=FACE_BOUND('',#81,.T.);
#32=FACE_BOUND('',#83,.T.);
#33=FACE_BOUND('',#86,.T.);
#34=FACE_BOUND('',#88,.T.);
#35=FACE_BOUND('',#90,.T.);
#36=FACE_BOUND('',#92,.T.);
#37=FACE_BOUND('',#94,.T.);
#38=FACE_BOUND('',#96,.T.);
#39=FACE_BOUND('',#98,.T.);
#40=FACE_BOUND('',#100,.T.);
#41=FACE_BOUND('',#102,.T.);
#42=FACE_OUTER_BOUND('',#63,.T.);
#43=FACE_OUTER_BOUND('',#65,.T.);
#44=FACE_OUTER_BOUND('',#67,.T.);
#45=FACE_OUTER_BOUND('',#69,.T.);
#46=FACE_OUTER_BOUND('',#71,.T.);
#47=FACE_OUTER_BOUND('',#73,.T.);
#48=FACE_OUTER_BOUND('',#75,.T.);
#49=FACE_OUTER_BOUND('',#76,.T.);
#50=FACE_OUTER_BOUND('',#78,.T.);
#51=FACE_OUTER_BOUND('',#80,.T.);
#52=FACE_OUTER_BOUND('',#82,.T.);
#53=FACE_OUTER_BOUND('',#84,.T.);
#54=FACE_OUTER_BOUND('',#85,.T.);
#55=FACE_OUTER_BOUND('',#87,.T.);
#56=FACE_OUTER_BOUND('',#89,.T.);
#57=FACE_OUTER_BOUND('',#91,.T.);
#58=FACE_OUTER_BOUND('',#93,.T.);
#59=FACE_OUTER_BOUND('',#95,.T.);
#60=FACE_OUTER_BOUND('',#97,.T.);
#61=FACE_OUTER_BOUND('',#99,.T.);
#62=FACE_OUTER_BOUND('',#101,.T.);
#63=EDGE_LOOP('',(#163));
#64=EDGE_LOOP('',(#164));
#65=EDGE_LOOP('',(#165));
#66=EDGE_LOOP('',(#166));
#67=EDGE_LOOP('',(#167));
#68=EDGE_LOOP('',(#168));
#69=EDGE_LOOP('',(#169));
#70=EDGE_LOOP('',(#170));
#71=EDGE_LOOP('',(#171));
#72=EDGE_LOOP('',(#172));
#73=EDGE_LOOP('',(#173));
#74=EDGE_LOOP('',(#174));
#75=EDGE_LOOP('',(#175));
#76=EDGE_LOOP('',(#176));
#77=EDGE_LOOP('',(#177));
#78=EDGE_LOOP('',(#178));
#79=EDGE_LOOP('',(#179));
#80=EDGE_LOOP('',(#180));
#81=EDGE_LOOP('',(#181));
#82=EDGE_LOOP('',(#182));
#83=EDGE_LOOP('',(#183));
#84=EDGE_LOOP('',(#184));
#85=EDGE_LOOP('',(#185));
#86=EDGE_LOOP('',(#186));
#87=EDGE_LOOP('',(#187));
#88=EDGE_LOOP('',(#188));
#89=EDGE_LOOP('',(#189));
#90=EDGE_LOOP('',(#190));
#91=EDGE_LOOP('',(#191));
#92=EDGE_LOOP('',(#192));
#93=EDGE_LOOP('',(#193));
#94=EDGE_LOOP('',(#194));
#95=EDGE_LOOP('',(#195));
#96=EDGE_LOOP('',(#196));
#97=EDGE_LOOP('',(#197));
#98=EDGE_LOOP('',(#198));
#99=EDGE_LOOP('',(#199));
#100=EDGE_LOOP('',(#200));
#101=EDGE_LOOP('',(#201));
#102=EDGE_LOOP('',(#202));
#103=CIRCLE('',#261,13.5);
#104=CIRCLE('',#262,14.5);
#105=CIRCLE('',#264,15.);
#106=CIRCLE('',#266,13.5);
#107=CIRCLE('',#268,16.);
#108=CIRCLE('',#270,16.);
#109=CIRCLE('',#272,9.35287569166709);
#110=CIRCLE('',#273,8.4);
#111=CIRCLE('',#276,12.5702147286199);
#112=CIRCLE('',#278,11.4506079623808);
#113=CIRCLE('',#281,8.4);
#114=CIRCLE('',#282,8.7);
#115=CIRCLE('',#285,9.);
#116=CIRCLE('',#287,9.52967069115099);
#117=CIRCLE('',#289,12.5702147286199);
#118=CIRCLE('',#290,13.0284722981155);
#119=CIRCLE('',#292,11.4506079623808);
#120=CIRCLE('',#294,11.0664205081349);
#121=CIRCLE('',#297,15.);
#122=CIRCLE('',#299,13.9449874371066);
#123=VERTEX_POINT('',#387);
#124=VERTEX_POINT('',#389);
#125=VERTEX_POINT('',#392);
#126=VERTEX_POINT('',#395);
#127=VERTEX_POINT('',#398);
#128=VERTEX_POINT('',#401);
#129=VERTEX_POINT('',#404);
#130=VERTEX_POINT('',#406);
#131=VERTEX_POINT('',#410);
#132=VERTEX_POINT('',#413);
#133=VERTEX_POINT('',#417);
#134=VERTEX_POINT('',#419);
#135=VERTEX_POINT('',#423);
#136=VERTEX_POINT('',#426);
#137=VERTEX_POINT('',#429);
#138=VERTEX_POINT('',#431);
#139=VERTEX_POINT('',#434);
#140=VERTEX_POINT('',#437);
#141=VERTEX_POINT('',#441);
#142=VERTEX_POINT('',#444);
#143=EDGE_CURVE('',#123,#123,#103,.T.);
#144=EDGE_CURVE('',#124,#124,#104,.T.);
#145=EDGE_CURVE('',#125,#125,#105,.T.);
#146=EDGE_CURVE('',#126,#126,#106,.T.);
#147=EDGE_CURVE('',#127,#127,#107,.T.);
#148=EDGE_CURVE('',#128,#128,#108,.T.);
#149=EDGE_CURVE('',#129,#129,#109,.T.);
#150=EDGE_CURVE('',#130,#130,#110,.T.);
#151=EDGE_CURVE('',#131,#131,#111,.T.);
#152=EDGE_CURVE('',#132,#132,#112,.T.);
#153=EDGE_CURVE('',#133,#133,#113,.T.);
#154=EDGE_CURVE('',#134,#134,#114,.T.);
#155=EDGE_CURVE('',#135,#135,#115,.T.);
#156=EDGE_CURVE('',#136,#136,#116,.T.);
#157=EDGE_CURVE('',#137,#137,#117,.T.);
#158=EDGE_CURVE('',#138,#138,#118,.T.);
#159=EDGE_CURVE('',#139,#139,#119,.T.);
#160=EDGE_CURVE('',#140,#140,#120,.T.);
#161=EDGE_CURVE('',#141,#141,#121,.T.);
#162=EDGE_CURVE('',#142,#142,#122,.T.);
#163=ORIENTED_EDGE('',*,*,#143,.T.);
#164=ORIENTED_EDGE('',*,*,#144,.T.);
#165=ORIENTED_EDGE('',*,*,#145,.F.);
#166=ORIENTED_EDGE('',*,*,#144,.F.);
#167=ORIENTED_EDGE('',*,*,#146,.T.);
#168=ORIENTED_EDGE('',*,*,#143,.F.);
#169=ORIENTED_EDGE('',*,*,#147,.T.);
#170=ORIENTED_EDGE('',*,*,#145,.T.);
#171=ORIENTED_EDGE('',*,*,#148,.F.);
#172=ORIENTED_EDGE('',*,*,#147,.F.);
#173=ORIENTED_EDGE('',*,*,#149,.F.);
#174=ORIENTED_EDGE('',*,*,#150,.F.);
#175=ORIENTED_EDGE('',*,*,#150,.T.);
#176=ORIENTED_EDGE('',*,*,#146,.F.);
#177=ORIENTED_EDGE('',*,*,#151,.F.);
#178=ORIENTED_EDGE('',*,*,#151,.T.);
#179=ORIENTED_EDGE('',*,*,#152,.T.);
#180=ORIENTED_EDGE('',*,*,#149,.T.);
#181=ORIENTED_EDGE('',*,*,#152,.F.);
#182=ORIENTED_EDGE('',*,*,#153,.T.);
#183=ORIENTED_EDGE('',*,*,#154,.T.);
#184=ORIENTED_EDGE('',*,*,#153,.F.);
#185=ORIENTED_EDGE('',*,*,#155,.T.);
#186=ORIENTED_EDGE('',*,*,#154,.F.);
#187=ORIENTED_EDGE('',*,*,#156,.F.);
#188=ORIENTED_EDGE('',*,*,#155,.F.);
#189=ORIENTED_EDGE('',*,*,#157,.T.);
#190=ORIENTED_EDGE('',*,*,#158,.T.);
#191=ORIENTED_EDGE('',*,*,#157,.F.);
#192=ORIENTED_EDGE('',*,*,#159,.F.);
#193=ORIENTED_EDGE('',*,*,#159,.T.);
#194=ORIENTED_EDGE('',*,*,#160,.T.);
#195=ORIENTED_EDGE('',*,*,#160,.F.);
#196=ORIENTED_EDGE('',*,*,#156,.T.);
#197=ORIENTED_EDGE('',*,*,#148,.T.);
#198=ORIENTED_EDGE('',*,*,#161,.T.);
#199=ORIENTED_EDGE('',*,*,#161,.F.);
#200=ORIENTED_EDGE('',*,*,#162,.F.);
#201=ORIENTED_EDGE('',*,*,#162,.T.);
#202=ORIENTED_EDGE('',*,*,#158,.F.);
#203=TOROIDAL_SURFACE('',#260,14.5,1.);
#204=TOROIDAL_SURFACE('',#267,15.,1.);
#205=TOROIDAL_SURFACE('',#271,8.4,3.);
#206=TOROIDAL_SURFACE('',#275,12.5702147286199,3.);
#207=TOROIDAL_SURFACE('',#279,11.4506079623808,3.);
#208=TOROIDAL_SURFACE('',#280,8.4,0.5);
#209=TOROIDAL_SURFACE('',#284,9.,0.5);
#210=TOROIDAL_SURFACE('',#288,12.5702147286199,0.5);
#211=TOROIDAL_SURFACE('',#293,11.4506079623808,0.5);
#212=TOROIDAL_SURFACE('',#295,9.52967069115099,2.);
#213=TOROIDAL_SURFACE('',#296,15.,1.);
#214=TOROIDAL_SURFACE('',#300,13.9449874371066,1.);
#215=STYLED_ITEM('',(#469),#237);
#216=STYLED_ITEM('',(#469),#238);
#217=STYLED_ITEM('',(#469),#239);
#218=STYLED_ITEM('',(#469),#240);
#219=STYLED_ITEM('',(#469),#241);
#220=STYLED_ITEM('',(#469),#242);
#221=STYLED_ITEM('',(#469),#243);
#222=STYLED_ITEM('',(#469),#244);
#223=STYLED_ITEM('',(#469),#245);
#224=STYLED_ITEM('',(#469),#246);
#225=STYLED_ITEM('',(#469),#247);
#226=STYLED_ITEM('',(#469),#248);
#227=STYLED_ITEM('',(#469),#249);
#228=STYLED_ITEM('',(#469),#250);
#229=STYLED_ITEM('',(#469),#251);
#230=STYLED_ITEM('',(#469),#252);
#231=STYLED_ITEM('',(#469),#253);
#232=STYLED_ITEM('',(#469),#254);
#233=STYLED_ITEM('',(#469),#255);
#234=STYLED_ITEM('',(#469),#256);
#235=STYLED_ITEM('',(#469),#257);
#236=STYLED_ITEM('',(#468),#13);
#237=ADVANCED_FACE('',(#42,#23),#203,.T.);
#238=ADVANCED_FACE('',(#43,#24),#16,.F.);
#239=ADVANCED_FACE('',(#44,#25),#14,.F.);
#240=ADVANCED_FACE('',(#45,#26),#204,.T.);
#241=ADVANCED_FACE('',(#46,#27),#15,.T.);
#242=ADVANCED_FACE('',(#47,#28),#205,.T.);
#243=ADVANCED_FACE('',(#48),#17,.F.);
#244=ADVANCED_FACE('',(#49,#29),#206,.T.);
#245=ADVANCED_FACE('',(#50,#30),#18,.F.);
#246=ADVANCED_FACE('',(#51,#31),#207,.T.);
#247=ADVANCED_FACE('',(#52,#32),#208,.F.);
#248=ADVANCED_FACE('',(#53),#19,.T.);
#249=ADVANCED_FACE('',(#54,#33),#209,.T.);
#250=ADVANCED_FACE('',(#55,#34),#20,.T.);
#251=ADVANCED_FACE('',(#56,#35),#210,.F.);
#252=ADVANCED_FACE('',(#57,#36),#21,.T.);
#253=ADVANCED_FACE('',(#58,#37),#211,.F.);
#254=ADVANCED_FACE('',(#59,#38),#212,.T.);
#255=ADVANCED_FACE('',(#60,#39),#213,.T.);
#256=ADVANCED_FACE('',(#61,#40),#22,.T.);
#257=ADVANCED_FACE('',(#62,#41),#214,.T.);
#258=CLOSED_SHELL('',(#237,#238,#239,#240,#241,#242,#243,#244,#245,#246,
#247,#248,#249,#250,#251,#252,#253,#254,#255,#256,#257));
#259=AXIS2_PLACEMENT_3D('placement',#385,#301,#302);
#260=AXIS2_PLACEMENT_3D('',#386,#303,#304);
#261=AXIS2_PLACEMENT_3D('',#388,#305,#306);
#262=AXIS2_PLACEMENT_3D('',#390,#307,#308);
#263=AXIS2_PLACEMENT_3D('',#391,#309,#310);
#264=AXIS2_PLACEMENT_3D('',#393,#311,#312);
#265=AXIS2_PLACEMENT_3D('',#394,#313,#314);
#266=AXIS2_PLACEMENT_3D('',#396,#315,#316);
#267=AXIS2_PLACEMENT_3D('',#397,#317,#318);
#268=AXIS2_PLACEMENT_3D('',#399,#319,#320);
#269=AXIS2_PLACEMENT_3D('',#400,#321,#322);
#270=AXIS2_PLACEMENT_3D('',#402,#323,#324);
#271=AXIS2_PLACEMENT_3D('',#403,#325,#326);
#272=AXIS2_PLACEMENT_3D('',#405,#327,#328);
#273=AXIS2_PLACEMENT_3D('',#407,#329,#330);
#274=AXIS2_PLACEMENT_3D('',#408,#331,#332);
#275=AXIS2_PLACEMENT_3D('',#409,#333,#334);
#276=AXIS2_PLACEMENT_3D('',#411,#335,#336);
#277=AXIS2_PLACEMENT_3D('',#412,#337,#338);
#278=AXIS2_PLACEMENT_3D('',#414,#339,#340);
#279=AXIS2_PLACEMENT_3D('',#415,#341,#342);
#280=AXIS2_PLACEMENT_3D('',#416,#343,#344);
#281=AXIS2_PLACEMENT_3D('',#418,#345,#346);
#282=AXIS2_PLACEMENT_3D('',#420,#347,#348);
#283=AXIS2_PLACEMENT_3D('',#421,#349,#350);
#284=AXIS2_PLACEMENT_3D('',#422,#351,#352);
#285=AXIS2_PLACEMENT_3D('',#424,#353,#354);
#286=AXIS2_PLACEMENT_3D('',#425,#355,#356);
#287=AXIS2_PLACEMENT_3D('',#427,#357,#358);
#288=AXIS2_PLACEMENT_3D('',#428,#359,#360);
#289=AXIS2_PLACEMENT_3D('',#430,#361,#362);
#290=AXIS2_PLACEMENT_3D('',#432,#363,#364);
#291=AXIS2_PLACEMENT_3D('',#433,#365,#366);
#292=AXIS2_PLACEMENT_3D('',#435,#367,#368);
#293=AXIS2_PLACEMENT_3D('',#436,#369,#370);
#294=AXIS2_PLACEMENT_3D('',#438,#371,#372);
#295=AXIS2_PLACEMENT_3D('',#439,#373,#374);
#296=AXIS2_PLACEMENT_3D('',#440,#375,#376);
#297=AXIS2_PLACEMENT_3D('',#442,#377,#378);
#298=AXIS2_PLACEMENT_3D('',#443,#379,#380);
#299=AXIS2_PLACEMENT_3D('',#445,#381,#382);
#300=AXIS2_PLACEMENT_3D('',#446,#383,#384);
#301=DIRECTION('axis',(0.,0.,1.));
#302=DIRECTION('refdir',(1.,0.,0.));
#303=DIRECTION('center_axis',(0.,1.,0.));
#304=DIRECTION('ref_axis',(0.,0.,1.));
#305=DIRECTION('center_axis',(0.,1.,0.));
#306=DIRECTION('ref_axis',(1.,0.,0.));
#307=DIRECTION('center_axis',(0.,-1.,0.));
#308=DIRECTION('ref_axis',(1.,0.,0.));
#309=DIRECTION('center_axis',(0.,1.,0.));
#310=DIRECTION('ref_axis',(0.,0.,1.));
#311=DIRECTION('center_axis',(0.,1.,0.));
#312=DIRECTION('ref_axis',(1.,0.,0.));
#313=DIRECTION('center_axis',(0.,1.,0.));
#314=DIRECTION('ref_axis',(1.,0.,0.));
#315=DIRECTION('center_axis',(0.,1.,0.));
#316=DIRECTION('ref_axis',(1.,0.,0.));
#317=DIRECTION('center_axis',(0.,-1.,0.));
#318=DIRECTION('ref_axis',(0.,0.,-1.));
#319=DIRECTION('center_axis',(0.,-1.,0.));
#320=DIRECTION('ref_axis',(1.,0.,0.));
#321=DIRECTION('center_axis',(0.,1.,0.));
#322=DIRECTION('ref_axis',(1.,0.,0.));
#323=DIRECTION('center_axis',(0.,1.,0.));
#324=DIRECTION('ref_axis',(1.,0.,0.));
#325=DIRECTION('center_axis',(0.,-1.,0.));
#326=DIRECTION('ref_axis',(0.,0.,-1.));
#327=DIRECTION('center_axis',(0.,1.,0.));
#328=DIRECTION('ref_axis',(0.,0.,-1.));
#329=DIRECTION('center_axis',(0.,-1.,0.));
#330=DIRECTION('ref_axis',(1.,0.,1.22464679914735E-16));
#331=DIRECTION('center_axis',(0.,1.,0.));
#332=DIRECTION('ref_axis',(0.,0.,1.));
#333=DIRECTION('center_axis',(0.,-1.,0.));
#334=DIRECTION('ref_axis',(0.,0.,-1.));
#335=DIRECTION('center_axis',(0.,-1.,0.));
#336=DIRECTION('ref_axis',(1.,0.,1.22464679914735E-16));
#337=DIRECTION('center_axis',(0.,1.,0.));
#338=DIRECTION('ref_axis',(0.,0.,1.));
#339=DIRECTION('center_axis',(0.,1.,0.));
#340=DIRECTION('ref_axis',(1.,0.,-1.22464679914735E-16));
#341=DIRECTION('center_axis',(0.,1.,0.));
#342=DIRECTION('ref_axis',(0.,0.,1.));
#343=DIRECTION('center_axis',(0.,-1.,0.));
#344=DIRECTION('ref_axis',(0.,0.,-1.));
#345=DIRECTION('center_axis',(0.,-1.,0.));
#346=DIRECTION('ref_axis',(1.,0.,1.22464679914735E-16));
#347=DIRECTION('center_axis',(0.,1.,0.));
#348=DIRECTION('ref_axis',(1.,0.,1.22464679914735E-16));
#349=DIRECTION('center_axis',(0.,1.,0.));
#350=DIRECTION('ref_axis',(0.,0.,1.));
#351=DIRECTION('center_axis',(0.,1.,0.));
#352=DIRECTION('ref_axis',(1.,0.,0.));
#353=DIRECTION('center_axis',(0.,1.,0.));
#354=DIRECTION('ref_axis',(1.,0.,0.));
#355=DIRECTION('center_axis',(0.,1.,0.));
#356=DIRECTION('ref_axis',(0.,0.,1.));
#357=DIRECTION('center_axis',(0.,-1.,0.));
#358=DIRECTION('ref_axis',(1.,0.,0.));
#359=DIRECTION('center_axis',(0.,-1.,0.));
#360=DIRECTION('ref_axis',(0.,0.,-1.));
#361=DIRECTION('center_axis',(0.,-1.,0.));
#362=DIRECTION('ref_axis',(1.,0.,1.22464679914735E-16));
#363=DIRECTION('center_axis',(0.,1.,0.));
#364=DIRECTION('ref_axis',(1.,0.,1.22464679914735E-16));
#365=DIRECTION('center_axis',(0.,1.,0.));
#366=DIRECTION('ref_axis',(0.,0.,1.));
#367=DIRECTION('center_axis',(0.,1.,0.));
#368=DIRECTION('ref_axis',(1.,0.,-1.22464679914735E-16));
#369=DIRECTION('center_axis',(0.,1.,0.));
#370=DIRECTION('ref_axis',(0.,0.,1.));
#371=DIRECTION('center_axis',(0.,-1.,0.));
#372=DIRECTION('ref_axis',(1.,0.,-1.22464679914735E-16));
#373=DIRECTION('center_axis',(0.,1.,0.));
#374=DIRECTION('ref_axis',(1.,0.,0.));
#375=DIRECTION('center_axis',(0.,1.,0.));
#376=DIRECTION('ref_axis',(0.,0.,1.));
#377=DIRECTION('center_axis',(0.,-1.,0.));
#378=DIRECTION('ref_axis',(1.,0.,0.));
#379=DIRECTION('center_axis',(0.,1.,0.));
#380=DIRECTION('ref_axis',(0.,0.,1.));
#381=DIRECTION('center_axis',(0.,1.,0.));
#382=DIRECTION('ref_axis',(1.,0.,0.));
#383=DIRECTION('center_axis',(0.,1.,0.));
#384=DIRECTION('ref_axis',(1.,0.,0.));
#385=CARTESIAN_POINT('',(0.,0.,0.));
#386=CARTESIAN_POINT('Origin',(0.,1.,0.));
#387=CARTESIAN_POINT('',(-13.5,1.,1.65327317884893E-15));
#388=CARTESIAN_POINT('Origin',(0.,1.,0.));
#389=CARTESIAN_POINT('',(-14.5,0.,-1.77573785876366E-15));
#390=CARTESIAN_POINT('Origin',(0.,0.,0.));
#391=CARTESIAN_POINT('Origin',(1.08847209374061E-15,0.,0.));
#392=CARTESIAN_POINT('',(-15.,0.,1.83697019872103E-15));
#393=CARTESIAN_POINT('Origin',(0.,0.,0.));
#394=CARTESIAN_POINT('Origin',(0.,0.,0.));
#395=CARTESIAN_POINT('',(-13.5,16.747720324175,1.65327317884893E-15));
#396=CARTESIAN_POINT('Origin',(0.,16.747720324175,0.));
#397=CARTESIAN_POINT('Origin',(0.,1.,0.));
#398=CARTESIAN_POINT('',(-16.,1.,-1.95943487863577E-15));
#399=CARTESIAN_POINT('Origin',(0.,1.,0.));
#400=CARTESIAN_POINT('Origin',(0.,0.,0.));
#401=CARTESIAN_POINT('',(-16.,19.,1.95943487863577E-15));
#402=CARTESIAN_POINT('Origin',(0.,19.,0.));
#403=CARTESIAN_POINT('Origin',(0.,20.3,0.));
#404=CARTESIAN_POINT('',(1.14539692786232E-15,17.455351002983,9.35287569166709));
#405=CARTESIAN_POINT('Origin',(0.,17.455351002983,0.));
#406=CARTESIAN_POINT('',(-8.4,17.3,-2.05740662256755E-15));
#407=CARTESIAN_POINT('Origin',(0.,17.3,0.));
#408=CARTESIAN_POINT('Origin',(-5.1808535573159E-16,17.3,2.15159500896348E-16));
#409=CARTESIAN_POINT('Origin',(0.,19.6,0.));
#410=CARTESIAN_POINT('',(-12.5702147286199,16.6,-3.07881464639985E-15));
#411=CARTESIAN_POINT('Origin',(0.,16.6,0.));
#412=CARTESIAN_POINT('Origin',(-7.037031850284E-16,16.6,-2.85771692310208E-16));
#413=CARTESIAN_POINT('',(-11.4506079623808,16.6,2.80459007788418E-15));
#414=CARTESIAN_POINT('Origin',(0.,16.6,0.));
#415=CARTESIAN_POINT('Origin',(0.,19.6,0.));
#416=CARTESIAN_POINT('Origin',(0.,20.3,0.));
#417=CARTESIAN_POINT('',(-8.4,19.8,-2.05740662256755E-15));
#418=CARTESIAN_POINT('Origin',(0.,19.8,0.));
#419=CARTESIAN_POINT('',(-8.7,19.9,0.));
#420=CARTESIAN_POINT('Origin',(0.,19.9,0.));
#421=CARTESIAN_POINT('Origin',(-5.1808535573159E-16,19.8,2.15159500896348E-16));
#422=CARTESIAN_POINT('Origin',(0.,19.5,0.));
#423=CARTESIAN_POINT('',(-9.,20.,1.10218211923262E-15));
#424=CARTESIAN_POINT('Origin',(0.,20.,0.));
#425=CARTESIAN_POINT('Origin',(1.08847209374061E-15,20.,0.));
#426=CARTESIAN_POINT('',(-9.52967069115099,20.,-1.16704807088464E-15));
#427=CARTESIAN_POINT('Origin',(0.,20.,0.));
#428=CARTESIAN_POINT('Origin',(0.,19.6,0.));
#429=CARTESIAN_POINT('',(-12.5702147286199,19.1,-3.07881464639985E-15));
#430=CARTESIAN_POINT('Origin',(0.,19.1,0.));
#431=CARTESIAN_POINT('',(-13.0284722981155,19.4,0.));
#432=CARTESIAN_POINT('Origin',(0.,19.4,0.));
#433=CARTESIAN_POINT('Origin',(-7.037031850284E-16,19.1,-2.85771692310208E-16));
#434=CARTESIAN_POINT('',(-11.4506079623808,19.1,2.80459007788418E-15));
#435=CARTESIAN_POINT('Origin',(0.,19.1,0.));
#436=CARTESIAN_POINT('Origin',(0.,19.6,0.));
#437=CARTESIAN_POINT('',(-11.0664205081349,19.28,0.));
#438=CARTESIAN_POINT('Origin',(0.,19.28,0.));
#439=CARTESIAN_POINT('Origin',(0.,18.,0.));
#440=CARTESIAN_POINT('Origin',(0.,19.,0.));
#441=CARTESIAN_POINT('',(-15.,20.,-1.83697019872103E-15));
#442=CARTESIAN_POINT('Origin',(0.,20.,0.));
#443=CARTESIAN_POINT('Origin',(1.08847209374061E-15,20.,0.));
#444=CARTESIAN_POINT('',(-13.9449874371066,20.,1.70776842290027E-15));
#445=CARTESIAN_POINT('Origin',(0.,20.,0.));
#446=CARTESIAN_POINT('Origin',(0.,19.,0.));
#447=UNCERTAINTY_MEASURE_WITH_UNIT(LENGTH_MEASURE(0.01),#451,
'DISTANCE_ACCURACY_VALUE',
'Maximum model space distance between geometric entities at asserted c
onnectivities');
#448=UNCERTAINTY_MEASURE_WITH_UNIT(LENGTH_MEASURE(1.E-6),#451,
'DISTANCE_ACCURACY_VALUE',
'Maximum model space distance between geometric entities at asserted c
onnectivities');
#449=(
GEOMETRIC_REPRESENTATION_CONTEXT(3)
GLOBAL_UNCERTAINTY_ASSIGNED_CONTEXT((#447))
GLOBAL_UNIT_ASSIGNED_CONTEXT((#451,#454,#452))
REPRESENTATION_CONTEXT('','3D')
);
#450=(
GEOMETRIC_REPRESENTATION_CONTEXT(3)
GLOBAL_UNCERTAINTY_ASSIGNED_CONTEXT((#448))
GLOBAL_UNIT_ASSIGNED_CONTEXT((#451,#454,#452))
REPRESENTATION_CONTEXT('','3D')
);
#451=(
LENGTH_UNIT()
NAMED_UNIT(*)
SI_UNIT(.MILLI.,.METRE.)
);
#452=(
NAMED_UNIT(*)
SI_UNIT($,.STERADIAN.)
SOLID_ANGLE_UNIT()
);
#453=DIMENSIONAL_EXPONENTS(0.,0.,0.,0.,0.,0.,0.);
#454=(
CONVERSION_BASED_UNIT('degree',#456)
NAMED_UNIT(#453)
PLANE_ANGLE_UNIT()
);
#455=(
NAMED_UNIT(*)
PLANE_ANGLE_UNIT()
SI_UNIT($,.RADIAN.)
);
#456=PLANE_ANGLE_MEASURE_WITH_UNIT(PLANE_ANGLE_MEASURE(0.01745329252),#455);
#457=SHAPE_DEFINITION_REPRESENTATION(#458,#459);
#458=PRODUCT_DEFINITION_SHAPE('',$,#461);
#459=SHAPE_REPRESENTATION('',(#259),#449);
#460=PRODUCT_DEFINITION_CONTEXT('part definition',#465,'design');
#461=PRODUCT_DEFINITION('Part2','Part2',#462,#460);
#462=PRODUCT_DEFINITION_FORMATION('',$,#467);
#463=PRODUCT_RELATED_PRODUCT_CATEGORY('Part2','Part2',(#467));
#464=APPLICATION_PROTOCOL_DEFINITION('international standard',
'automotive_design',2009,#465);
#465=APPLICATION_CONTEXT(
'Core Data for Automotive Mechanical Design Process');
#466=PRODUCT_CONTEXT('part definition',#465,'mechanical');
#467=PRODUCT('Part2','Part2',$,(#466));
#468=PRESENTATION_STYLE_ASSIGNMENT((#470));
#469=PRESENTATION_STYLE_ASSIGNMENT((#471));
#470=SURFACE_STYLE_USAGE(.BOTH.,#472);
#471=SURFACE_STYLE_USAGE(.BOTH.,#473);
#472=SURFACE_SIDE_STYLE('',(#474));
#473=SURFACE_SIDE_STYLE('',(#475));
#474=SURFACE_STYLE_FILL_AREA(#476);
#475=SURFACE_STYLE_FILL_AREA(#477);
#476=FILL_AREA_STYLE('',(#478));
#477=FILL_AREA_STYLE('',(#479));
#478=FILL_AREA_STYLE_COLOUR('',#480);
#479=FILL_AREA_STYLE_COLOUR('',#481);
#480=COLOUR_RGB('',0.749019607843137,0.749019607843137,0.749019607843137);
#481=COLOUR_RGB('',0.67843137254902,0.,0.);
ENDSEC;
END-ISO-10303-21;
