ISO-10303-21;
HEADER;
/* Generated by software containing ST-Developer
 * from STEP Tools, Inc. (www.steptools.com) 
 */

FILE_DESCRIPTION(
/* description */ (''),
/* implementation_level */ '2;1');

FILE_NAME(
/* name */ 
'C:\\Users\\CAD Station\\Desktop\\1PB\\22 mm\\22mm Push Button Accesso
ries\\2LAMXL\\2LAMXL.stp',
/* time_stamp */ '2016-07-20T15:03:07-04:00',
/* author */ ('CAD Station'),
/* organization */ (''),
/* preprocessor_version */ 'ST-DEVELOPER v16.1',
/* originating_system */ 'Autodesk Inventor 2016',
/* authorisation */ '');

FILE_SCHEMA (('AUTOMOTIVE_DESIGN { 1 0 10303 214 3 1 1 }'));
ENDSEC;

DATA;
#10=MECHANICAL_DESIGN_GEOMETRIC_PRESENTATION_REPRESENTATION('',(#158,#159,
#160,#161,#156,#155,#157,#163,#162,#168,#164,#169,#167,#165,#166,#170),
#324);
#11=SHAPE_REPRESENTATION_RELATIONSHIP('SRR','None',#333,#12);
#12=ADVANCED_BREP_SHAPE_REPRESENTATION('',(#13),#323);
#13=MANIFOLD_SOLID_BREP('Solid1',#186);
#14=CONICAL_SURFACE('',#198,8.5374882867403,88.5679038158355);
#15=TOROIDAL_SURFACE('',#195,7.,1.);
#16=TOROIDAL_SURFACE('',#200,17.,3.);
#17=TOROIDAL_SURFACE('',#202,17.,3.);
#18=TOROIDAL_SURFACE('',#204,17.,1.);
#19=TOROIDAL_SURFACE('',#208,15.,1.);
#20=TOROIDAL_SURFACE('',#212,13.,1.);
#21=PLANE('',#191);
#22=PLANE('',#197);
#23=PLANE('',#210);
#24=PLANE('',#216);
#25=FACE_BOUND('',#54,.T.);
#26=FACE_BOUND('',#56,.T.);
#27=FACE_BOUND('',#58,.T.);
#28=FACE_BOUND('',#60,.T.);
#29=FACE_BOUND('',#64,.T.);
#30=FACE_BOUND('',#66,.T.);
#31=FACE_BOUND('',#68,.T.);
#32=FACE_BOUND('',#70,.T.);
#33=FACE_BOUND('',#72,.T.);
#34=FACE_BOUND('',#74,.T.);
#35=FACE_BOUND('',#76,.T.);
#36=FACE_BOUND('',#78,.T.);
#37=FACE_BOUND('',#80,.T.);
#38=FACE_OUTER_BOUND('',#53,.T.);
#39=FACE_OUTER_BOUND('',#55,.T.);
#40=FACE_OUTER_BOUND('',#57,.T.);
#41=FACE_OUTER_BOUND('',#59,.T.);
#42=FACE_OUTER_BOUND('',#61,.T.);
#43=FACE_OUTER_BOUND('',#62,.T.);
#44=FACE_OUTER_BOUND('',#63,.T.);
#45=FACE_OUTER_BOUND('',#65,.T.);
#46=FACE_OUTER_BOUND('',#67,.T.);
#47=FACE_OUTER_BOUND('',#69,.T.);
#48=FACE_OUTER_BOUND('',#71,.T.);
#49=FACE_OUTER_BOUND('',#73,.T.);
#50=FACE_OUTER_BOUND('',#75,.T.);
#51=FACE_OUTER_BOUND('',#77,.T.);
#52=FACE_OUTER_BOUND('',#79,.T.);
#53=EDGE_LOOP('',(#123));
#54=EDGE_LOOP('',(#124));
#55=EDGE_LOOP('',(#125));
#56=EDGE_LOOP('',(#126));
#57=EDGE_LOOP('',(#127));
#58=EDGE_LOOP('',(#128));
#59=EDGE_LOOP('',(#129));
#60=EDGE_LOOP('',(#130));
#61=EDGE_LOOP('',(#131));
#62=EDGE_LOOP('',(#132));
#63=EDGE_LOOP('',(#133));
#64=EDGE_LOOP('',(#134));
#65=EDGE_LOOP('',(#135));
#66=EDGE_LOOP('',(#136));
#67=EDGE_LOOP('',(#137));
#68=EDGE_LOOP('',(#138));
#69=EDGE_LOOP('',(#139));
#70=EDGE_LOOP('',(#140));
#71=EDGE_LOOP('',(#141));
#72=EDGE_LOOP('',(#142));
#73=EDGE_LOOP('',(#143));
#74=EDGE_LOOP('',(#144));
#75=EDGE_LOOP('',(#145));
#76=EDGE_LOOP('',(#146));
#77=EDGE_LOOP('',(#147));
#78=EDGE_LOOP('',(#148));
#79=EDGE_LOOP('',(#149));
#80=EDGE_LOOP('',(#150));
#81=CIRCLE('',#189,10.5);
#82=CIRCLE('',#190,10.5);
#83=CIRCLE('',#192,8.);
#84=CIRCLE('',#194,8.);
#85=CIRCLE('',#196,7.);
#86=CIRCLE('',#199,17.0749765734806);
#87=CIRCLE('',#201,19.9924311759354);
#88=CIRCLE('',#203,17.);
#89=CIRCLE('',#205,16.);
#90=CIRCLE('',#207,16.);
#91=CIRCLE('',#209,15.);
#92=CIRCLE('',#211,13.);
#93=CIRCLE('',#213,12.);
#94=CIRCLE('',#215,12.);
#95=VERTEX_POINT('',#279);
#96=VERTEX_POINT('',#281);
#97=VERTEX_POINT('',#284);
#98=VERTEX_POINT('',#287);
#99=VERTEX_POINT('',#290);
#100=VERTEX_POINT('',#294);
#101=VERTEX_POINT('',#297);
#102=VERTEX_POINT('',#300);
#103=VERTEX_POINT('',#303);
#104=VERTEX_POINT('',#306);
#105=VERTEX_POINT('',#309);
#106=VERTEX_POINT('',#312);
#107=VERTEX_POINT('',#315);
#108=VERTEX_POINT('',#318);
#109=EDGE_CURVE('',#95,#95,#81,.T.);
#110=EDGE_CURVE('',#96,#96,#82,.T.);
#111=EDGE_CURVE('',#97,#97,#83,.T.);
#112=EDGE_CURVE('',#98,#98,#84,.T.);
#113=EDGE_CURVE('',#99,#99,#85,.T.);
#114=EDGE_CURVE('',#100,#100,#86,.T.);
#115=EDGE_CURVE('',#101,#101,#87,.T.);
#116=EDGE_CURVE('',#102,#102,#88,.T.);
#117=EDGE_CURVE('',#103,#103,#89,.T.);
#118=EDGE_CURVE('',#104,#104,#90,.T.);
#119=EDGE_CURVE('',#105,#105,#91,.T.);
#120=EDGE_CURVE('',#106,#106,#92,.T.);
#121=EDGE_CURVE('',#107,#107,#93,.T.);
#122=EDGE_CURVE('',#108,#108,#94,.T.);
#123=ORIENTED_EDGE('',*,*,#109,.T.);
#124=ORIENTED_EDGE('',*,*,#110,.F.);
#125=ORIENTED_EDGE('',*,*,#109,.F.);
#126=ORIENTED_EDGE('',*,*,#111,.F.);
#127=ORIENTED_EDGE('',*,*,#111,.T.);
#128=ORIENTED_EDGE('',*,*,#112,.F.);
#129=ORIENTED_EDGE('',*,*,#112,.T.);
#130=ORIENTED_EDGE('',*,*,#113,.F.);
#131=ORIENTED_EDGE('',*,*,#113,.T.);
#132=ORIENTED_EDGE('',*,*,#114,.F.);
#133=ORIENTED_EDGE('',*,*,#114,.T.);
#134=ORIENTED_EDGE('',*,*,#115,.F.);
#135=ORIENTED_EDGE('',*,*,#115,.T.);
#136=ORIENTED_EDGE('',*,*,#116,.F.);
#137=ORIENTED_EDGE('',*,*,#116,.T.);
#138=ORIENTED_EDGE('',*,*,#117,.F.);
#139=ORIENTED_EDGE('',*,*,#117,.T.);
#140=ORIENTED_EDGE('',*,*,#118,.F.);
#141=ORIENTED_EDGE('',*,*,#118,.T.);
#142=ORIENTED_EDGE('',*,*,#119,.F.);
#143=ORIENTED_EDGE('',*,*,#119,.T.);
#144=ORIENTED_EDGE('',*,*,#120,.F.);
#145=ORIENTED_EDGE('',*,*,#120,.T.);
#146=ORIENTED_EDGE('',*,*,#121,.F.);
#147=ORIENTED_EDGE('',*,*,#121,.T.);
#148=ORIENTED_EDGE('',*,*,#122,.F.);
#149=ORIENTED_EDGE('',*,*,#122,.T.);
#150=ORIENTED_EDGE('',*,*,#110,.T.);
#151=CYLINDRICAL_SURFACE('',#188,10.5);
#152=CYLINDRICAL_SURFACE('',#193,8.);
#153=CYLINDRICAL_SURFACE('',#206,16.);
#154=CYLINDRICAL_SURFACE('',#214,12.);
#155=STYLED_ITEM('',(#343),#171);
#156=STYLED_ITEM('',(#343),#172);
#157=STYLED_ITEM('',(#343),#173);
#158=STYLED_ITEM('',(#343),#174);
#159=STYLED_ITEM('',(#343),#175);
#160=STYLED_ITEM('',(#343),#176);
#161=STYLED_ITEM('',(#343),#177);
#162=STYLED_ITEM('',(#343),#178);
#163=STYLED_ITEM('',(#343),#179);
#164=STYLED_ITEM('',(#343),#180);
#165=STYLED_ITEM('',(#343),#181);
#166=STYLED_ITEM('',(#343),#182);
#167=STYLED_ITEM('',(#343),#183);
#168=STYLED_ITEM('',(#343),#184);
#169=STYLED_ITEM('',(#343),#185);
#170=STYLED_ITEM('',(#342),#13);
#171=ADVANCED_FACE('',(#38,#25),#151,.F.);
#172=ADVANCED_FACE('',(#39,#26),#21,.F.);
#173=ADVANCED_FACE('',(#40,#27),#152,.F.);
#174=ADVANCED_FACE('',(#41,#28),#15,.F.);
#175=ADVANCED_FACE('',(#42),#22,.T.);
#176=ADVANCED_FACE('',(#43),#14,.T.);
#177=ADVANCED_FACE('',(#44,#29),#16,.T.);
#178=ADVANCED_FACE('',(#45,#30),#17,.T.);
#179=ADVANCED_FACE('',(#46,#31),#18,.T.);
#180=ADVANCED_FACE('',(#47,#32),#153,.F.);
#181=ADVANCED_FACE('',(#48,#33),#19,.F.);
#182=ADVANCED_FACE('',(#49,#34),#23,.T.);
#183=ADVANCED_FACE('',(#50,#35),#20,.F.);
#184=ADVANCED_FACE('',(#51,#36),#154,.T.);
#185=ADVANCED_FACE('',(#52,#37),#24,.T.);
#186=CLOSED_SHELL('',(#171,#172,#173,#174,#175,#176,#177,#178,#179,#180,
#181,#182,#183,#184,#185));
#187=AXIS2_PLACEMENT_3D('placement',#277,#217,#218);
#188=AXIS2_PLACEMENT_3D('',#278,#219,#220);
#189=AXIS2_PLACEMENT_3D('',#280,#221,#222);
#190=AXIS2_PLACEMENT_3D('',#282,#223,#224);
#191=AXIS2_PLACEMENT_3D('',#283,#225,#226);
#192=AXIS2_PLACEMENT_3D('',#285,#227,#228);
#193=AXIS2_PLACEMENT_3D('',#286,#229,#230);
#194=AXIS2_PLACEMENT_3D('',#288,#231,#232);
#195=AXIS2_PLACEMENT_3D('',#289,#233,#234);
#196=AXIS2_PLACEMENT_3D('',#291,#235,#236);
#197=AXIS2_PLACEMENT_3D('',#292,#237,#238);
#198=AXIS2_PLACEMENT_3D('',#293,#239,#240);
#199=AXIS2_PLACEMENT_3D('',#295,#241,#242);
#200=AXIS2_PLACEMENT_3D('',#296,#243,#244);
#201=AXIS2_PLACEMENT_3D('',#298,#245,#246);
#202=AXIS2_PLACEMENT_3D('',#299,#247,#248);
#203=AXIS2_PLACEMENT_3D('',#301,#249,#250);
#204=AXIS2_PLACEMENT_3D('',#302,#251,#252);
#205=AXIS2_PLACEMENT_3D('',#304,#253,#254);
#206=AXIS2_PLACEMENT_3D('',#305,#255,#256);
#207=AXIS2_PLACEMENT_3D('',#307,#257,#258);
#208=AXIS2_PLACEMENT_3D('',#308,#259,#260);
#209=AXIS2_PLACEMENT_3D('',#310,#261,#262);
#210=AXIS2_PLACEMENT_3D('',#311,#263,#264);
#211=AXIS2_PLACEMENT_3D('',#313,#265,#266);
#212=AXIS2_PLACEMENT_3D('',#314,#267,#268);
#213=AXIS2_PLACEMENT_3D('',#316,#269,#270);
#214=AXIS2_PLACEMENT_3D('',#317,#271,#272);
#215=AXIS2_PLACEMENT_3D('',#319,#273,#274);
#216=AXIS2_PLACEMENT_3D('',#320,#275,#276);
#217=DIRECTION('axis',(0.,0.,1.));
#218=DIRECTION('refdir',(1.,0.,0.));
#219=DIRECTION('center_axis',(0.,1.,0.));
#220=DIRECTION('ref_axis',(-1.,0.,0.));
#221=DIRECTION('center_axis',(0.,1.,0.));
#222=DIRECTION('ref_axis',(-1.,0.,0.));
#223=DIRECTION('center_axis',(0.,1.,0.));
#224=DIRECTION('ref_axis',(-1.,0.,0.));
#225=DIRECTION('center_axis',(0.,1.,0.));
#226=DIRECTION('ref_axis',(0.,0.,1.));
#227=DIRECTION('center_axis',(0.,-1.,0.));
#228=DIRECTION('ref_axis',(1.,0.,0.));
#229=DIRECTION('center_axis',(0.,-1.,0.));
#230=DIRECTION('ref_axis',(1.,0.,0.));
#231=DIRECTION('center_axis',(0.,-1.,0.));
#232=DIRECTION('ref_axis',(1.,0.,0.));
#233=DIRECTION('center_axis',(0.,-1.,0.));
#234=DIRECTION('ref_axis',(0.,0.,-1.));
#235=DIRECTION('center_axis',(0.,-1.,0.));
#236=DIRECTION('ref_axis',(1.,0.,0.));
#237=DIRECTION('center_axis',(0.,-1.,0.));
#238=DIRECTION('ref_axis',(0.,0.,-1.));
#239=DIRECTION('center_axis',(0.,-1.,0.));
#240=DIRECTION('ref_axis',(1.,0.,0.));
#241=DIRECTION('center_axis',(0.,-1.,0.));
#242=DIRECTION('ref_axis',(1.,0.,0.));
#243=DIRECTION('center_axis',(0.,-1.,0.));
#244=DIRECTION('ref_axis',(0.,0.,-1.));
#245=DIRECTION('center_axis',(0.,-1.,0.));
#246=DIRECTION('ref_axis',(1.,0.,0.));
#247=DIRECTION('center_axis',(0.,-1.,0.));
#248=DIRECTION('ref_axis',(0.,0.,-1.));
#249=DIRECTION('center_axis',(0.,-1.,0.));
#250=DIRECTION('ref_axis',(1.,0.,0.));
#251=DIRECTION('center_axis',(0.,-1.,0.));
#252=DIRECTION('ref_axis',(0.,0.,-1.));
#253=DIRECTION('center_axis',(0.,-1.,0.));
#254=DIRECTION('ref_axis',(1.,0.,0.));
#255=DIRECTION('center_axis',(0.,-1.,0.));
#256=DIRECTION('ref_axis',(1.,0.,0.));
#257=DIRECTION('center_axis',(0.,-1.,0.));
#258=DIRECTION('ref_axis',(1.,0.,0.));
#259=DIRECTION('center_axis',(0.,-1.,0.));
#260=DIRECTION('ref_axis',(0.,0.,-1.));
#261=DIRECTION('center_axis',(0.,-1.,0.));
#262=DIRECTION('ref_axis',(1.,0.,0.));
#263=DIRECTION('center_axis',(0.,-1.,0.));
#264=DIRECTION('ref_axis',(0.,0.,-1.));
#265=DIRECTION('center_axis',(0.,-1.,0.));
#266=DIRECTION('ref_axis',(1.,0.,0.));
#267=DIRECTION('center_axis',(0.,-1.,0.));
#268=DIRECTION('ref_axis',(0.,0.,-1.));
#269=DIRECTION('center_axis',(0.,-1.,0.));
#270=DIRECTION('ref_axis',(1.,0.,0.));
#271=DIRECTION('center_axis',(0.,-1.,0.));
#272=DIRECTION('ref_axis',(1.,0.,0.));
#273=DIRECTION('center_axis',(0.,-1.,0.));
#274=DIRECTION('ref_axis',(1.,0.,0.));
#275=DIRECTION('center_axis',(0.,-1.,0.));
#276=DIRECTION('ref_axis',(0.,0.,-1.));
#277=CARTESIAN_POINT('',(0.,0.,0.));
#278=CARTESIAN_POINT('Origin',(0.,0.,0.));
#279=CARTESIAN_POINT('',(10.5,2.,1.28587913910472E-15));
#280=CARTESIAN_POINT('Origin',(0.,2.,0.));
#281=CARTESIAN_POINT('',(10.5,0.,1.28587913910472E-15));
#282=CARTESIAN_POINT('Origin',(0.,0.,0.));
#283=CARTESIAN_POINT('Origin',(-8.12060102623906E-16,2.,0.));
#284=CARTESIAN_POINT('',(8.,2.,9.79717439317883E-16));
#285=CARTESIAN_POINT('Origin',(0.,2.,0.));
#286=CARTESIAN_POINT('Origin',(0.,6.25,0.));
#287=CARTESIAN_POINT('',(8.,12.5,0.));
#288=CARTESIAN_POINT('Origin',(0.,12.5,0.));
#289=CARTESIAN_POINT('Origin',(0.,12.5,0.));
#290=CARTESIAN_POINT('',(7.,13.5,0.));
#291=CARTESIAN_POINT('Origin',(0.,13.5,0.));
#292=CARTESIAN_POINT('Origin',(0.,13.5,0.));
#293=CARTESIAN_POINT('Origin',(0.,14.7865627928315,0.));
#294=CARTESIAN_POINT('',(17.0749765734806,14.573125585663,0.));
#295=CARTESIAN_POINT('Origin',(0.,14.573125585663,0.));
#296=CARTESIAN_POINT('Origin',(0.,11.5740626464386,0.));
#297=CARTESIAN_POINT('',(19.9924311759354,11.7870313232193,0.));
#298=CARTESIAN_POINT('Origin',(0.,11.7870313232193,0.));
#299=CARTESIAN_POINT('Origin',(0.,12.,0.));
#300=CARTESIAN_POINT('',(17.,9.,0.));
#301=CARTESIAN_POINT('Origin',(0.,9.,0.));
#302=CARTESIAN_POINT('Origin',(0.,10.,0.));
#303=CARTESIAN_POINT('',(16.,10.,0.));
#304=CARTESIAN_POINT('Origin',(0.,10.,0.));
#305=CARTESIAN_POINT('Origin',(0.,11.25,0.));
#306=CARTESIAN_POINT('',(16.,12.5,0.));
#307=CARTESIAN_POINT('Origin',(0.,12.5,0.));
#308=CARTESIAN_POINT('Origin',(0.,12.5,0.));
#309=CARTESIAN_POINT('',(15.,13.5,0.));
#310=CARTESIAN_POINT('Origin',(0.,13.5,0.));
#311=CARTESIAN_POINT('Origin',(13.,13.5,0.));
#312=CARTESIAN_POINT('',(13.,13.5,0.));
#313=CARTESIAN_POINT('Origin',(0.,13.5,0.));
#314=CARTESIAN_POINT('Origin',(0.,12.5,0.));
#315=CARTESIAN_POINT('',(12.,12.5,0.));
#316=CARTESIAN_POINT('Origin',(0.,12.5,0.));
#317=CARTESIAN_POINT('Origin',(0.,6.25,0.));
#318=CARTESIAN_POINT('',(12.,0.,0.));
#319=CARTESIAN_POINT('Origin',(0.,0.,0.));
#320=CARTESIAN_POINT('Origin',(8.,0.,0.));
#321=UNCERTAINTY_MEASURE_WITH_UNIT(LENGTH_MEASURE(0.01),#325,
'DISTANCE_ACCURACY_VALUE',
'Maximum model space distance between geometric entities at asserted c
onnectivities');
#322=UNCERTAINTY_MEASURE_WITH_UNIT(LENGTH_MEASURE(1.E-6),#325,
'DISTANCE_ACCURACY_VALUE',
'Maximum model space distance between geometric entities at asserted c
onnectivities');
#323=(
GEOMETRIC_REPRESENTATION_CONTEXT(3)
GLOBAL_UNCERTAINTY_ASSIGNED_CONTEXT((#321))
GLOBAL_UNIT_ASSIGNED_CONTEXT((#325,#328,#326))
REPRESENTATION_CONTEXT('','3D')
);
#324=(
GEOMETRIC_REPRESENTATION_CONTEXT(3)
GLOBAL_UNCERTAINTY_ASSIGNED_CONTEXT((#322))
GLOBAL_UNIT_ASSIGNED_CONTEXT((#325,#328,#326))
REPRESENTATION_CONTEXT('','3D')
);
#325=(
LENGTH_UNIT()
NAMED_UNIT(*)
SI_UNIT(.MILLI.,.METRE.)
);
#326=(
NAMED_UNIT(*)
SI_UNIT($,.STERADIAN.)
SOLID_ANGLE_UNIT()
);
#327=DIMENSIONAL_EXPONENTS(0.,0.,0.,0.,0.,0.,0.);
#328=(
CONVERSION_BASED_UNIT('degree',#330)
NAMED_UNIT(#327)
PLANE_ANGLE_UNIT()
);
#329=(
NAMED_UNIT(*)
PLANE_ANGLE_UNIT()
SI_UNIT($,.RADIAN.)
);
#330=PLANE_ANGLE_MEASURE_WITH_UNIT(PLANE_ANGLE_MEASURE(0.01745329252),#329);
#331=SHAPE_DEFINITION_REPRESENTATION(#332,#333);
#332=PRODUCT_DEFINITION_SHAPE('',$,#335);
#333=SHAPE_REPRESENTATION('',(#187),#323);
#334=PRODUCT_DEFINITION_CONTEXT('part definition',#339,'design');
#335=PRODUCT_DEFINITION('2LAMXL','2LAMXL',#336,#334);
#336=PRODUCT_DEFINITION_FORMATION('',$,#341);
#337=PRODUCT_RELATED_PRODUCT_CATEGORY('2LAMXL','2LAMXL',(#341));
#338=APPLICATION_PROTOCOL_DEFINITION('international standard',
'automotive_design',2009,#339);
#339=APPLICATION_CONTEXT(
'Core Data for Automotive Mechanical Design Process');
#340=PRODUCT_CONTEXT('part definition',#339,'mechanical');
#341=PRODUCT('2LAMXL','2LAMXL',$,(#340));
#342=PRESENTATION_STYLE_ASSIGNMENT((#344));
#343=PRESENTATION_STYLE_ASSIGNMENT((#345));
#344=SURFACE_STYLE_USAGE(.BOTH.,#346);
#345=SURFACE_STYLE_USAGE(.BOTH.,#347);
#346=SURFACE_SIDE_STYLE('',(#348));
#347=SURFACE_SIDE_STYLE('',(#349));
#348=SURFACE_STYLE_FILL_AREA(#350);
#349=SURFACE_STYLE_FILL_AREA(#351);
#350=FILL_AREA_STYLE('',(#352));
#351=FILL_AREA_STYLE('',(#353));
#352=FILL_AREA_STYLE_COLOUR('',#354);
#353=FILL_AREA_STYLE_COLOUR('',#355);
#354=COLOUR_RGB('',0.305882352941176,0.36078431372549,0.580392156862745);
#355=COLOUR_RGB('',0.498039215686275,0.498039215686275,0.498039215686275);
ENDSEC;
END-ISO-10303-21;
